ISO-10303-21;
HEADER;
FILE_DESCRIPTION (( 'STEP AP203' ),
    '1' );
FILE_NAME ('OUTSIDE-IAC-RS1.STEP',
    '2014-08-21T10:19:30',
    ( 'IDEC' ),
    ( '' ),
    'SwSTEP 2.0',
    'SolidWorks 2012',
    '' );
FILE_SCHEMA (( 'CONFIG_CONTROL_DESIGN' ));
ENDSEC;

DATA;
#1 = PERSON ( 'UNSPECIFIED', 'UNSPECIFIED', 'UNSPECIFIED', ('UNSPECIFIED'), ('UNSPECIFIED'), ('UNSPECIFIED') ) ;
#2 = ORIENTED_EDGE ( 'NONE', *, *, #91, .F. ) ;
#3 = ORIENTED_EDGE ( 'NONE', *, *, #92, .T. ) ;
#4 = ORIENTED_EDGE ( 'NONE', *, *, #94, .F. ) ;
#5 = ORIENTED_EDGE ( 'NONE', *, *, #93, .F. ) ;
#6 = EDGE_LOOP ( 'NONE', ( #360, #372, #371, #369 ) ) ;
#7 = ORIENTED_EDGE ( 'NONE', *, *, #102, .T. ) ;
#8 = ORIENTED_EDGE ( 'NONE', *, *, #89, .F. ) ;
#9 = EDGE_LOOP ( 'NONE', ( #370, #7, #361, #362 ) ) ;
#10 = EDGE_LOOP ( 'NONE', ( #368, #364, #365, #43 ) ) ;
#11 = EDGE_LOOP ( 'NONE', ( #2, #37, #14, #45 ) ) ;
#12 = ORIENTED_EDGE ( 'NONE', *, *, #93, .T. ) ;
#13 = ORIENTED_EDGE ( 'NONE', *, *, #100, .T. ) ;
#14 = ORIENTED_EDGE ( 'NONE', *, *, #100, .F. ) ;
#15 = ORIENTED_EDGE ( 'NONE', *, *, #86, .F. ) ;
#16 = ORIENTED_EDGE ( 'NONE', *, *, #94, .T. ) ;
#17 = ORIENTED_EDGE ( 'NONE', *, *, #83, .F. ) ;
#18 = EDGE_LOOP ( 'NONE', ( #4, #12, #44, #8 ) ) ;
#19 = ORIENTED_EDGE ( 'NONE', *, *, #85, .F. ) ;
#20 = EDGE_LOOP ( 'NONE', ( #29, #31, #28, #33 ) ) ;
#21 = ORIENTED_EDGE ( 'NONE', *, *, #97, .T. ) ;
#22 = ORIENTED_EDGE ( 'NONE', *, *, #89, .T. ) ;
#23 = ORIENTED_EDGE ( 'NONE', *, *, #86, .T. ) ;
#24 = ORIENTED_EDGE ( 'NONE', *, *, #105, .F. ) ;
#25 = ORIENTED_EDGE ( 'NONE', *, *, #87, .T. ) ;
#26 = ORIENTED_EDGE ( 'NONE', *, *, #102, .F. ) ;
#27 = ORIENTED_EDGE ( 'NONE', *, *, #99, .T. ) ;
#28 = ORIENTED_EDGE ( 'NONE', *, *, #80, .F. ) ;
#29 = ORIENTED_EDGE ( 'NONE', *, *, #90, .F. ) ;
#30 = ORIENTED_EDGE ( 'NONE', *, *, #95, .F. ) ;
#31 = ORIENTED_EDGE ( 'NONE', *, *, #88, .T. ) ;
#32 = ORIENTED_EDGE ( 'NONE', *, *, #104, .T. ) ;
#33 = ORIENTED_EDGE ( 'NONE', *, *, #87, .F. ) ;
#34 = ORIENTED_EDGE ( 'NONE', *, *, #88, .F. ) ;
#35 = EDGE_LOOP ( 'NONE', ( #5, #39, #38, #24, #30, #26, #17, #34 ) ) ;
#36 = ORIENTED_EDGE ( 'NONE', *, *, #96, .T. ) ;
#37 = ORIENTED_EDGE ( 'NONE', *, *, #103, .T. ) ;
#38 = ORIENTED_EDGE ( 'NONE', *, *, #103, .F. ) ;
#39 = ORIENTED_EDGE ( 'NONE', *, *, #85, .T. ) ;
#40 = EDGE_LOOP ( 'NONE', ( #36, #3, #23, #22, #25, #27, #32, #21 ) ) ;
#41 = EDGE_LOOP ( 'NONE', ( #16, #15, #13, #19 ) ) ;
#42 = EDGE_LOOP ( 'NONE', ( #363, #359, #366, #367 ) ) ;
#43 = ORIENTED_EDGE ( 'NONE', *, *, #105, .T. ) ;
#44 = ORIENTED_EDGE ( 'NONE', *, *, #90, .T. ) ;
#45 = ORIENTED_EDGE ( 'NONE', *, *, #92, .F. ) ;
#46 = PRODUCT_RELATED_PRODUCT_CATEGORY ( 'detail', '', ( #178 ) ) ;
#47 = LOCAL_TIME ( 19, 19, 30.00000000000000000, #135 ) ;
#48 = APPROVAL ( #187, 'UNSPECIFIED' ) ;
#49 = CC_DESIGN_DATE_AND_TIME_ASSIGNMENT ( #190, #189, ( #139 ) ) ;
#50 = LOCAL_TIME ( 19, 19, 30.00000000000000000, #138 ) ;
#51 = CC_DESIGN_PERSON_AND_ORGANIZATION_ASSIGNMENT ( #208, #207, ( #139 ) ) ;
#52 = CC_DESIGN_PERSON_AND_ORGANIZATION_ASSIGNMENT ( #211, #210, ( #145 ) ) ;
#53 = CC_DESIGN_PERSON_AND_ORGANIZATION_ASSIGNMENT ( #213, #212, ( #145 ) ) ;
#54 = LOCAL_TIME ( 19, 19, 30.00000000000000000, #142 ) ;
#55 = APPROVAL ( #217, 'UNSPECIFIED' ) ;
#56 = CC_DESIGN_DATE_AND_TIME_ASSIGNMENT ( #220, #219, ( #62 ) ) ;
#57 = LOCAL_TIME ( 19, 19, 30.00000000000000000, #147 ) ;
#58 = CC_DESIGN_PERSON_AND_ORGANIZATION_ASSIGNMENT ( #222, #221, ( #62 ) ) ;
#59 = LOCAL_TIME ( 19, 19, 30.00000000000000000, #151 ) ;
#60 = ADVANCED_FACE ( 'NONE', ( #130 ), #192, .F. ) ;
#61 = CC_DESIGN_PERSON_AND_ORGANIZATION_ASSIGNMENT ( #230, #229, ( #178 ) ) ;
#62 = PRODUCT_DEFINITION ( 'UNKNOWN', '', #145, #179 ) ;
#63 = APPROVAL ( #226, 'UNSPECIFIED' ) ;
#64 = CIRCLE ( 'NONE', #159, 1.000000000000000900 ) ;
#65 = CIRCLE ( 'NONE', #107, 1.000000000000000900 ) ;
#66 = CIRCLE ( 'NONE', #174, 1.000000000000000900 ) ;
#67 = CIRCLE ( 'NONE', #169, 1.000000000000000900 ) ;
#68 = CIRCLE ( 'NONE', #165, 1.000000000000000900 ) ;
#69 = CIRCLE ( 'NONE', #110, 1.000000000000000900 ) ;
#70 = CIRCLE ( 'NONE', #167, 1.000000000000000900 ) ;
#71 = CIRCLE ( 'NONE', #106, 1.000000000000000900 ) ;
#72 = ADVANCED_FACE ( 'NONE', ( #127 ), #148, .T. ) ;
#73 = ADVANCED_FACE ( 'NONE', ( #131 ), #356, .F. ) ;
#74 = ADVANCED_FACE ( 'NONE', ( #129 ), #175, .T. ) ;
#75 = ADVANCED_FACE ( 'NONE', ( #124 ), #172, .T. ) ;
#76 =( GEOMETRIC_REPRESENTATION_CONTEXT ( 3 ) GLOBAL_UNCERTAINTY_ASSIGNED_CONTEXT ( ( #183 ) ) GLOBAL_UNIT_ASSIGNED_CONTEXT ( ( #239, #238, #237 ) ) REPRESENTATION_CONTEXT ( 'NONE', 'WORKASPACE' ) );
#77 = ADVANCED_FACE ( 'NONE', ( #163 ), #113, .T. ) ;
#78 = ADVANCED_FACE ( 'NONE', ( #116 ), #343, .F. ) ;
#79 = ADVANCED_FACE ( 'NONE', ( #125 ), #339, .T. ) ;
#80 = EDGE_CURVE ( 'NONE', #373, #205, #335, .T. ) ;
#81 = ADVANCED_FACE ( 'NONE', ( #123 ), #332, .F. ) ;
#82 = ADVANCED_FACE ( 'NONE', ( #118 ), #328, .F. ) ;
#83 = EDGE_CURVE ( 'NONE', #205, #206, #71, .T. ) ;
#84 = EDGE_CURVE ( 'NONE', #206, #377, #320, .T. ) ;
#85 = EDGE_CURVE ( 'NONE', #201, #199, #317, .T. ) ;
#86 = EDGE_CURVE ( 'NONE', #200, #202, #314, .T. ) ;
#87 = EDGE_CURVE ( 'NONE', #204, #373, #311, .T. ) ;
#88 = EDGE_CURVE ( 'NONE', #203, #205, #308, .T. ) ;
#89 = EDGE_CURVE ( 'NONE', #202, #204, #66, .T. ) ;
#90 = EDGE_CURVE ( 'NONE', #203, #204, #302, .T. ) ;
#91 = EDGE_CURVE ( 'NONE', #197, #198, #299, .T. ) ;
#92 = EDGE_CURVE ( 'NONE', #198, #200, #67, .T. ) ;
#93 = EDGE_CURVE ( 'NONE', #201, #203, #69, .T. ) ;
#94 = EDGE_CURVE ( 'NONE', #201, #202, #290, .T. ) ;
#95 = EDGE_CURVE ( 'NONE', #376, #374, #70, .T. ) ;
#96 = EDGE_CURVE ( 'NONE', #191, #198, #284, .T. ) ;
#97 = EDGE_CURVE ( 'NONE', #375, #191, #68, .T. ) ;
#98 = EDGE_CURVE ( 'NONE', #374, #191, #278, .T. ) ;
#99 = EDGE_CURVE ( 'NONE', #373, #377, #65, .T. ) ;
#100 = EDGE_CURVE ( 'NONE', #200, #199, #272, .T. ) ;
#101 = EDGE_CURVE ( 'NONE', #376, #375, #269, .T. ) ;
#102 = EDGE_CURVE ( 'NONE', #206, #376, #266, .T. ) ;
#103 = EDGE_CURVE ( 'NONE', #197, #199, #64, .T. ) ;
#104 = EDGE_CURVE ( 'NONE', #377, #375, #260, .T. ) ;
#105 = EDGE_CURVE ( 'NONE', #374, #197, #257, .T. ) ;
#106 = AXIS2_PLACEMENT_3D ( 'NONE', #324, #323, #322 ) ;
#107 = AXIS2_PLACEMENT_3D ( 'NONE', #279, #275, #274 ) ;
#108 = VECTOR ( 'NONE', #318, 1000.000000000000000 ) ;
#109 = VECTOR ( 'NONE', #315, 1000.000000000000000 ) ;
#110 = AXIS2_PLACEMENT_3D ( 'NONE', #294, #293, #292 ) ;
#111 = VECTOR ( 'NONE', #312, 1000.000000000000000 ) ;
#112 = VECTOR ( 'NONE', #309, 1000.000000000000000 ) ;
#113 = CYLINDRICAL_SURFACE ( 'NONE', #115, 1.000000000000000900 ) ;
#114 = AXIS2_PLACEMENT_3D ( 'NONE', #352, #351, #350 ) ;
#115 = AXIS2_PLACEMENT_3D ( 'NONE', #346, #345, #344 ) ;
#116 = FACE_OUTER_BOUND ( 'NONE', #20, .T. ) ;
#117 = AXIS2_PLACEMENT_3D ( 'NONE', #331, #330, #329 ) ;
#118 = FACE_OUTER_BOUND ( 'NONE', #35, .T. ) ;
#119 = VECTOR ( 'NONE', #333, 1000.000000000000000 ) ;
#120 = AXIS2_PLACEMENT_3D ( 'NONE', #327, #326, #325 ) ;
#121 = AXIS2_PLACEMENT_3D ( 'NONE', #338, #337, #336 ) ;
#122 = AXIS2_PLACEMENT_3D ( 'NONE', #342, #341, #340 ) ;
#123 = FACE_OUTER_BOUND ( 'NONE', #41, .T. ) ;
#124 = FACE_OUTER_BOUND ( 'NONE', #6, .T. ) ;
#125 = FACE_OUTER_BOUND ( 'NONE', #40, .T. ) ;
#126 = AXIS2_PLACEMENT_3D ( 'NONE', #196, #358, #357 ) ;
#127 = FACE_OUTER_BOUND ( 'NONE', #11, .T. ) ;
#128 = CLOSED_SHELL ( 'NONE', ( #81, #82, #79, #78, #77, #72, #60, #74, #73, #75 ) ) ;
#129 = FACE_OUTER_BOUND ( 'NONE', #42, .T. ) ;
#130 = FACE_OUTER_BOUND ( 'NONE', #10, .T. ) ;
#131 = FACE_OUTER_BOUND ( 'NONE', #9, .T. ) ;
#132 = CC_DESIGN_SECURITY_CLASSIFICATION ( #139, ( #145 ) ) ;
#133 = CC_DESIGN_APPROVAL ( #48, ( #139 ) ) ;
#134 = CALENDAR_DATE ( 2014, 21, 8 ) ;
#135 = COORDINATED_UNIVERSAL_TIME_OFFSET ( 9, 0, .AHEAD. ) ;
#136 = APPROVAL_PERSON_ORGANIZATION ( #188, #48, #186 ) ;
#137 = CALENDAR_DATE ( 2014, 21, 8 ) ;
#138 = COORDINATED_UNIVERSAL_TIME_OFFSET ( 9, 0, .AHEAD. ) ;
#139 = SECURITY_CLASSIFICATION ( '', '', #209 ) ;
#140 = CC_DESIGN_APPROVAL ( #55, ( #145 ) ) ;
#141 = CALENDAR_DATE ( 2014, 21, 8 ) ;
#142 = COORDINATED_UNIVERSAL_TIME_OFFSET ( 9, 0, .AHEAD. ) ;
#143 = APPROVAL_PERSON_ORGANIZATION ( #218, #55, #216 ) ;
#144 = AXIS2_PLACEMENT_3D ( 'NONE', #193, #194, #195 ) ;
#145 = PRODUCT_DEFINITION_FORMATION_WITH_SPECIFIED_SOURCE ( 'ANY', '', #178, .NOT_KNOWN. ) ;
#146 = CALENDAR_DATE ( 2014, 21, 8 ) ;
#147 = COORDINATED_UNIVERSAL_TIME_OFFSET ( 9, 0, .AHEAD. ) ;
#148 = CYLINDRICAL_SURFACE ( 'NONE', #126, 1.000000000000000900 ) ;
#149 = CC_DESIGN_APPROVAL ( #63, ( #62 ) ) ;
#150 = CALENDAR_DATE ( 2014, 21, 8 ) ;
#151 = COORDINATED_UNIVERSAL_TIME_OFFSET ( 9, 0, .AHEAD. ) ;
#152 = APPROVAL_PERSON_ORGANIZATION ( #227, #63, #225 ) ;
#153 = ORGANIZATION ( 'UNSPECIFIED', 'UNSPECIFIED', '' ) ;
#154 = AXIS2_PLACEMENT_3D ( 'NONE', #235, #234, #233 ) ;
#155 = VECTOR ( 'NONE', #255, 1000.000000000000000 ) ;
#156 = VECTOR ( 'NONE', #258, 1000.000000000000000 ) ;
#157 = VECTOR ( 'NONE', #264, 1000.000000000000000 ) ;
#158 = VECTOR ( 'NONE', #267, 1000.000000000000000 ) ;
#159 = AXIS2_PLACEMENT_3D ( 'NONE', #273, #263, #262 ) ;
#160 = VECTOR ( 'NONE', #270, 1000.000000000000000 ) ;
#161 = VECTOR ( 'NONE', #276, 1000.000000000000000 ) ;
#162 = VECTOR ( 'NONE', #282, 1000.000000000000000 ) ;
#163 = FACE_OUTER_BOUND ( 'NONE', #18, .T. ) ;
#164 = AXIS2_PLACEMENT_3D ( 'NONE', #349, #348, #347 ) ;
#165 = AXIS2_PLACEMENT_3D ( 'NONE', #285, #281, #280 ) ;
#166 = VECTOR ( 'NONE', #288, 1000.000000000000000 ) ;
#167 = AXIS2_PLACEMENT_3D ( 'NONE', #291, #287, #286 ) ;
#168 = VECTOR ( 'NONE', #297, 1000.000000000000000 ) ;
#169 = AXIS2_PLACEMENT_3D ( 'NONE', #303, #296, #295 ) ;
#170 = VECTOR ( 'NONE', #300, 1000.000000000000000 ) ;
#171 = AXIS2_PLACEMENT_3D ( 'NONE', #355, #354, #353 ) ;
#172 = CYLINDRICAL_SURFACE ( 'NONE', #164, 1.000000000000000900 ) ;
#173 = VECTOR ( 'NONE', #306, 1000.000000000000000 ) ;
#174 = AXIS2_PLACEMENT_3D ( 'NONE', #321, #305, #304 ) ;
#175 = CYLINDRICAL_SURFACE ( 'NONE', #114, 1.000000000000000900 ) ;
#176 = APPLICATION_CONTEXT ( 'configuration controlled 3d designs of mechanical parts and assemblies' ) ;
#177 = APPLICATION_CONTEXT ( 'configuration controlled 3d designs of mechanical parts and assemblies' ) ;
#178 = PRODUCT ( 'OUTSIDE-IAC-RS1', 'OUTSIDE-IAC-RS1', '', ( #231 ) ) ;
#179 = DESIGN_CONTEXT ( 'detailed design', #176, 'design' ) ;
#180 = PRODUCT_DEFINITION_SHAPE ( 'NONE', 'NONE',  #62 ) ;
#181 = MANIFOLD_SOLID_BREP ( '²ÝÎß°Ä1', #128 ) ;
#182 = ADVANCED_BREP_SHAPE_REPRESENTATION ( 'OUTSIDE-IAC-RS1', ( #181, #154 ), #76 ) ;
#183 = UNCERTAINTY_MEASURE_WITH_UNIT (LENGTH_MEASURE( 1.000000000000000100E-005 ), #239, 'distance_accuracy_value', 'NONE');
#184 = APPROVAL_DATE_TIME ( #185, #48 ) ;
#185 = DATE_AND_TIME ( #134, #47 ) ;
#186 = APPROVAL_ROLE ( '' ) ;
#187 = APPROVAL_STATUS ( 'not_yet_approved' ) ;
#188 = PERSON_AND_ORGANIZATION ( #1, #153 ) ;
#189 = DATE_TIME_ROLE ( 'classification_date' ) ;
#190 = DATE_AND_TIME ( #137, #50 ) ;
#191 = VERTEX_POINT ( 'NONE', #254 ) ;
#192 = PLANE ( 'NONE',  #144 ) ;
#193 = CARTESIAN_POINT ( 'NONE',  ( -16.50000000000000000, 20.00000000000000000, 0.5000000000000000000 ) ) ;
#194 = DIRECTION ( 'NONE',  ( 0.0000000000000000000, -1.000000000000000000, 0.0000000000000000000 ) ) ;
#195 = DIRECTION ( 'NONE',  ( 0.0000000000000000000, 0.0000000000000000000, -1.000000000000000000 ) ) ;
#196 = CARTESIAN_POINT ( 'NONE',  ( -16.50000000000000000, 19.00000000000000000, 0.5000000000000000000 ) ) ;
#197 = VERTEX_POINT ( 'NONE', #253 ) ;
#198 = VERTEX_POINT ( 'NONE', #252 ) ;
#199 = VERTEX_POINT ( 'NONE', #251 ) ;
#200 = VERTEX_POINT ( 'NONE', #250 ) ;
#201 = VERTEX_POINT ( 'NONE', #249 ) ;
#202 = VERTEX_POINT ( 'NONE', #261 ) ;
#203 = VERTEX_POINT ( 'NONE', #248 ) ;
#204 = VERTEX_POINT ( 'NONE', #247 ) ;
#205 = VERTEX_POINT ( 'NONE', #246 ) ;
#206 = VERTEX_POINT ( 'NONE', #245 ) ;
#207 = PERSON_AND_ORGANIZATION_ROLE ( 'classification_officer' ) ;
#208 = PERSON_AND_ORGANIZATION ( #1, #153 ) ;
#209 = SECURITY_CLASSIFICATION_LEVEL ( 'unclassified' ) ;
#210 = PERSON_AND_ORGANIZATION_ROLE ( 'design_supplier' ) ;
#211 = PERSON_AND_ORGANIZATION ( #1, #153 ) ;
#212 = PERSON_AND_ORGANIZATION_ROLE ( 'creator' ) ;
#213 = PERSON_AND_ORGANIZATION ( #1, #153 ) ;
#214 = APPROVAL_DATE_TIME ( #215, #55 ) ;
#215 = DATE_AND_TIME ( #141, #54 ) ;
#216 = APPROVAL_ROLE ( '' ) ;
#217 = APPROVAL_STATUS ( 'not_yet_approved' ) ;
#218 = PERSON_AND_ORGANIZATION ( #1, #153 ) ;
#219 = DATE_TIME_ROLE ( 'creation_date' ) ;
#220 = DATE_AND_TIME ( #146, #57 ) ;
#221 = PERSON_AND_ORGANIZATION_ROLE ( 'creator' ) ;
#222 = PERSON_AND_ORGANIZATION ( #1, #153 ) ;
#223 = APPROVAL_DATE_TIME ( #224, #63 ) ;
#224 = DATE_AND_TIME ( #150, #59 ) ;
#225 = APPROVAL_ROLE ( '' ) ;
#226 = APPROVAL_STATUS ( 'not_yet_approved' ) ;
#227 = PERSON_AND_ORGANIZATION ( #1, #153 ) ;
#228 = APPLICATION_PROTOCOL_DEFINITION ( 'international standard', 'config_control_design', 1994, #176 ) ;
#229 = PERSON_AND_ORGANIZATION_ROLE ( 'design_owner' ) ;
#230 = PERSON_AND_ORGANIZATION ( #1, #153 ) ;
#231 = MECHANICAL_CONTEXT ( 'NONE', #177, 'mechanical' ) ;
#232 = APPLICATION_PROTOCOL_DEFINITION ( 'international standard', 'config_control_design', 1994, #177 ) ;
#233 = DIRECTION ( 'NONE',  ( 1.000000000000000000, 0.0000000000000000000, 0.0000000000000000000 ) ) ;
#234 = DIRECTION ( 'NONE',  ( 0.0000000000000000000, 0.0000000000000000000, 1.000000000000000000 ) ) ;
#235 = CARTESIAN_POINT ( 'NONE',  ( 0.0000000000000000000, 0.0000000000000000000, 0.0000000000000000000 ) ) ;
#236 = SHAPE_DEFINITION_REPRESENTATION ( #180, #182 ) ;
#237 =( NAMED_UNIT ( * ) SI_UNIT ( $, .STERADIAN. ) SOLID_ANGLE_UNIT ( ) );
#238 =( NAMED_UNIT ( * ) PLANE_ANGLE_UNIT ( ) SI_UNIT ( $, .RADIAN. ) );
#239 =( LENGTH_UNIT ( ) NAMED_UNIT ( * ) SI_UNIT ( .MILLI., .METRE. ) );
#240 = CARTESIAN_POINT ( 'NONE',  ( 17.50000000000000000, -19.00000000000000000, 0.5000000000000000000 ) ) ;
#241 = CARTESIAN_POINT ( 'NONE',  ( 17.50000000000000000, 18.99999999979489500, 0.0000000000000000000 ) ) ;
#242 = CARTESIAN_POINT ( 'NONE',  ( 17.50000000000000000, 18.99999999979489500, 0.5000000000000000000 ) ) ;
#243 = CARTESIAN_POINT ( 'NONE',  ( 16.50000000000000000, 20.00000000000000000, 0.0000000000000000000 ) ) ;
#244 = CARTESIAN_POINT ( 'NONE',  ( 16.50000000000000000, -20.00000000000000000, 0.5000000000000000000 ) ) ;
#245 = CARTESIAN_POINT ( 'NONE',  ( 17.50000000000000000, -19.00000000000000000, 0.0000000000000000000 ) ) ;
#246 = CARTESIAN_POINT ( 'NONE',  ( 16.50000000000000000, -20.00000000000000000, 0.0000000000000000000 ) ) ;
#247 = CARTESIAN_POINT ( 'NONE',  ( -16.50000000000000000, -20.00000000000000000, 0.5000000000000000000 ) ) ;
#248 = CARTESIAN_POINT ( 'NONE',  ( -16.50000000000000000, -20.00000000000000000, 0.0000000000000000000 ) ) ;
#249 = CARTESIAN_POINT ( 'NONE',  ( -17.50000000000000000, -19.00000000008979100, 0.0000000000000000000 ) ) ;
#250 = CARTESIAN_POINT ( 'NONE',  ( -17.50000000000000000, 19.00000000000000000, 0.5000000000000000000 ) ) ;
#251 = CARTESIAN_POINT ( 'NONE',  ( -17.50000000000000000, 19.00000000000000000, 0.0000000000000000000 ) ) ;
#252 = CARTESIAN_POINT ( 'NONE',  ( -16.49999999989744700, 20.00000000000000000, 0.5000000000000000000 ) ) ;
#253 = CARTESIAN_POINT ( 'NONE',  ( -16.49999999989744700, 20.00000000000000000, 0.0000000000000000000 ) ) ;
#254 = CARTESIAN_POINT ( 'NONE',  ( 16.50000000000000000, 20.00000000000000000, 0.5000000000000000000 ) ) ;
#255 = DIRECTION ( 'NONE',  ( -1.000000000000000000, -0.0000000000000000000, -0.0000000000000000000 ) ) ;
#256 = CARTESIAN_POINT ( 'NONE',  ( 0.0000000000000000000, 20.00000000000000000, 0.0000000000000000000 ) ) ;
#257 = LINE ( 'NONE', #256, #155 ) ;
#258 = DIRECTION ( 'NONE',  ( 0.0000000000000000000, 1.000000000000000000, 0.0000000000000000000 ) ) ;
#259 = CARTESIAN_POINT ( 'NONE',  ( 17.50000000000000000, 0.0000000000000000000, 0.5000000000000000000 ) ) ;
#260 = LINE ( 'NONE', #259, #156 ) ;
#261 = CARTESIAN_POINT ( 'NONE',  ( -17.50000000000000000, -19.00000000008979100, 0.5000000000000000000 ) ) ;
#262 = DIRECTION ( 'NONE',  ( -1.000000000000000000, 0.0000000000000000000, 0.0000000000000000000 ) ) ;
#263 = DIRECTION ( 'NONE',  ( -0.0000000000000000000, -0.0000000000000000000, 1.000000000000000000 ) ) ;
#264 = DIRECTION ( 'NONE',  ( 0.0000000000000000000, 1.000000000000000000, 0.0000000000000000000 ) ) ;
#265 = CARTESIAN_POINT ( 'NONE',  ( 17.50000000000000000, 0.0000000000000000000, 0.0000000000000000000 ) ) ;
#266 = LINE ( 'NONE', #265, #157 ) ;
#267 = DIRECTION ( 'NONE',  ( -0.0000000000000000000, -0.0000000000000000000, 1.000000000000000000 ) ) ;
#268 = CARTESIAN_POINT ( 'NONE',  ( 17.50000000000000000, 18.99999999958979300, 0.2500000000000000000 ) ) ;
#269 = LINE ( 'NONE', #268, #158 ) ;
#270 = DIRECTION ( 'NONE',  ( 0.0000000000000000000, 0.0000000000000000000, -1.000000000000000000 ) ) ;
#271 = CARTESIAN_POINT ( 'NONE',  ( -17.50000000000000000, 19.00000000000000000, 0.2500000000000000000 ) ) ;
#272 = LINE ( 'NONE', #271, #160 ) ;
#273 = CARTESIAN_POINT ( 'NONE',  ( -16.50000000000000000, 19.00000000000000000, 0.0000000000000000000 ) ) ;
#274 = DIRECTION ( 'NONE',  ( -1.000000000000000000, 0.0000000000000000000, 0.0000000000000000000 ) ) ;
#275 = DIRECTION ( 'NONE',  ( -0.0000000000000000000, -0.0000000000000000000, 1.000000000000000000 ) ) ;
#276 = DIRECTION ( 'NONE',  ( -0.0000000000000000000, -0.0000000000000000000, 1.000000000000000000 ) ) ;
#277 = CARTESIAN_POINT ( 'NONE',  ( 16.50000000000000000, 20.00000000000000000, 0.2500000000000000000 ) ) ;
#278 = LINE ( 'NONE', #277, #161 ) ;
#279 = CARTESIAN_POINT ( 'NONE',  ( 16.50000000000000000, -19.00000000000000000, 0.5000000000000000000 ) ) ;
#280 = DIRECTION ( 'NONE',  ( -1.000000000000000000, 0.0000000000000000000, 0.0000000000000000000 ) ) ;
#281 = DIRECTION ( 'NONE',  ( -0.0000000000000000000, -0.0000000000000000000, 1.000000000000000000 ) ) ;
#282 = DIRECTION ( 'NONE',  ( -1.000000000000000000, -0.0000000000000000000, -0.0000000000000000000 ) ) ;
#283 = CARTESIAN_POINT ( 'NONE',  ( 0.0000000000000000000, 20.00000000000000000, 0.5000000000000000000 ) ) ;
#284 = LINE ( 'NONE', #283, #162 ) ;
#285 = CARTESIAN_POINT ( 'NONE',  ( 16.50000000000000000, 19.00000000000000000, 0.5000000000000000000 ) ) ;
#286 = DIRECTION ( 'NONE',  ( -1.000000000000000000, 0.0000000000000000000, 0.0000000000000000000 ) ) ;
#287 = DIRECTION ( 'NONE',  ( -0.0000000000000000000, -0.0000000000000000000, 1.000000000000000000 ) ) ;
#288 = DIRECTION ( 'NONE',  ( -0.0000000000000000000, -0.0000000000000000000, 1.000000000000000000 ) ) ;
#289 = CARTESIAN_POINT ( 'NONE',  ( -17.50000000000000000, -19.00000000017959000, 0.2500000000000000000 ) ) ;
#290 = LINE ( 'NONE', #289, #166 ) ;
#291 = CARTESIAN_POINT ( 'NONE',  ( 16.50000000000000000, 19.00000000000000000, 0.0000000000000000000 ) ) ;
#292 = DIRECTION ( 'NONE',  ( -1.000000000000000000, 0.0000000000000000000, 0.0000000000000000000 ) ) ;
#293 = DIRECTION ( 'NONE',  ( -0.0000000000000000000, -0.0000000000000000000, 1.000000000000000000 ) ) ;
#294 = CARTESIAN_POINT ( 'NONE',  ( -16.50000000000000000, -19.00000000000000000, 0.0000000000000000000 ) ) ;
#295 = DIRECTION ( 'NONE',  ( -1.000000000000000000, 0.0000000000000000000, 0.0000000000000000000 ) ) ;
#296 = DIRECTION ( 'NONE',  ( -0.0000000000000000000, -0.0000000000000000000, 1.000000000000000000 ) ) ;
#297 = DIRECTION ( 'NONE',  ( -0.0000000000000000000, -0.0000000000000000000, 1.000000000000000000 ) ) ;
#298 = CARTESIAN_POINT ( 'NONE',  ( -16.49999999979489500, 20.00000000000000000, 0.2500000000000000000 ) ) ;
#299 = LINE ( 'NONE', #298, #168 ) ;
#300 = DIRECTION ( 'NONE',  ( 0.0000000000000000000, 0.0000000000000000000, 1.000000000000000000 ) ) ;
#301 = CARTESIAN_POINT ( 'NONE',  ( -16.50000000000000000, -20.00000000000000000, 0.2500000000000000000 ) ) ;
#302 = LINE ( 'NONE', #301, #170 ) ;
#303 = CARTESIAN_POINT ( 'NONE',  ( -16.50000000000000000, 19.00000000000000000, 0.5000000000000000000 ) ) ;
#304 = DIRECTION ( 'NONE',  ( -1.000000000000000000, 0.0000000000000000000, 0.0000000000000000000 ) ) ;
#305 = DIRECTION ( 'NONE',  ( -0.0000000000000000000, -0.0000000000000000000, 1.000000000000000000 ) ) ;
#306 = DIRECTION ( 'NONE',  ( 1.000000000000000000, 0.0000000000000000000, 0.0000000000000000000 ) ) ;
#307 = CARTESIAN_POINT ( 'NONE',  ( 0.0000000000000000000, -20.00000000000000000, 0.0000000000000000000 ) ) ;
#308 = LINE ( 'NONE', #307, #173 ) ;
#309 = DIRECTION ( 'NONE',  ( 1.000000000000000000, 0.0000000000000000000, 0.0000000000000000000 ) ) ;
#310 = CARTESIAN_POINT ( 'NONE',  ( 0.0000000000000000000, -20.00000000000000000, 0.5000000000000000000 ) ) ;
#311 = LINE ( 'NONE', #310, #112 ) ;
#312 = DIRECTION ( 'NONE',  ( -0.0000000000000000000, -1.000000000000000000, -0.0000000000000000000 ) ) ;
#313 = CARTESIAN_POINT ( 'NONE',  ( -17.50000000000000000, 0.0000000000000000000, 0.5000000000000000000 ) ) ;
#314 = LINE ( 'NONE', #313, #111 ) ;
#315 = DIRECTION ( 'NONE',  ( 0.0000000000000000000, 1.000000000000000000, 0.0000000000000000000 ) ) ;
#316 = CARTESIAN_POINT ( 'NONE',  ( -17.50000000000000000, 0.0000000000000000000, 0.0000000000000000000 ) ) ;
#317 = LINE ( 'NONE', #316, #109 ) ;
#318 = DIRECTION ( 'NONE',  ( 0.0000000000000000000, 0.0000000000000000000, 1.000000000000000000 ) ) ;
#319 = CARTESIAN_POINT ( 'NONE',  ( 17.50000000000000000, -19.00000000000000000, 0.2500000000000000000 ) ) ;
#320 = LINE ( 'NONE', #319, #108 ) ;
#321 = CARTESIAN_POINT ( 'NONE',  ( -16.50000000000000000, -19.00000000000000000, 0.5000000000000000000 ) ) ;
#322 = DIRECTION ( 'NONE',  ( -1.000000000000000000, 0.0000000000000000000, 0.0000000000000000000 ) ) ;
#323 = DIRECTION ( 'NONE',  ( -0.0000000000000000000, -0.0000000000000000000, 1.000000000000000000 ) ) ;
#324 = CARTESIAN_POINT ( 'NONE',  ( 16.50000000000000000, -19.00000000000000000, 0.0000000000000000000 ) ) ;
#325 = DIRECTION ( 'NONE',  ( 1.000000000000000000, 0.0000000000000000000, 0.0000000000000000000 ) ) ;
#326 = DIRECTION ( 'NONE',  ( 0.0000000000000000000, 0.0000000000000000000, 1.000000000000000000 ) ) ;
#327 = CARTESIAN_POINT ( 'NONE',  ( -17.50000000000000000, -20.00000000000000000, 0.0000000000000000000 ) ) ;
#328 = PLANE ( 'NONE',  #120 ) ;
#329 = DIRECTION ( 'NONE',  ( 0.0000000000000000000, 1.000000000000000000, 0.0000000000000000000 ) ) ;
#330 = DIRECTION ( 'NONE',  ( 1.000000000000000000, 0.0000000000000000000, 0.0000000000000000000 ) ) ;
#331 = CARTESIAN_POINT ( 'NONE',  ( -17.50000000000000000, -19.00000000000000000, 0.0000000000000000000 ) ) ;
#332 = PLANE ( 'NONE',  #117 ) ;
#333 = DIRECTION ( 'NONE',  ( -0.0000000000000000000, -0.0000000000000000000, -1.000000000000000000 ) ) ;
#334 = CARTESIAN_POINT ( 'NONE',  ( 16.50000000000000000, -20.00000000000000000, 0.2500000000000000000 ) ) ;
#335 = LINE ( 'NONE', #334, #119 ) ;
#336 = DIRECTION ( 'NONE',  ( 1.000000000000000000, 0.0000000000000000000, 0.0000000000000000000 ) ) ;
#337 = DIRECTION ( 'NONE',  ( 0.0000000000000000000, 0.0000000000000000000, 1.000000000000000000 ) ) ;
#338 = CARTESIAN_POINT ( 'NONE',  ( -17.50000000000000000, -20.00000000000000000, 0.5000000000000000000 ) ) ;
#339 = PLANE ( 'NONE',  #121 ) ;
#340 = DIRECTION ( 'NONE',  ( 0.0000000000000000000, 0.0000000000000000000, 1.000000000000000000 ) ) ;
#341 = DIRECTION ( 'NONE',  ( 0.0000000000000000000, 1.000000000000000000, 0.0000000000000000000 ) ) ;
#342 = CARTESIAN_POINT ( 'NONE',  ( -16.50000000000000000, -20.00000000000000000, 0.0000000000000000000 ) ) ;
#343 = PLANE ( 'NONE',  #122 ) ;
#344 = DIRECTION ( 'NONE',  ( -1.000000000000000000, 0.0000000000000000000, 0.0000000000000000000 ) ) ;
#345 = DIRECTION ( 'NONE',  ( 0.0000000000000000000, 0.0000000000000000000, -1.000000000000000000 ) ) ;
#346 = CARTESIAN_POINT ( 'NONE',  ( -16.50000000000000000, -19.00000000000000000, 0.5000000000000000000 ) ) ;
#347 = DIRECTION ( 'NONE',  ( -1.000000000000000000, 0.0000000000000000000, 0.0000000000000000000 ) ) ;
#348 = DIRECTION ( 'NONE',  ( 0.0000000000000000000, 0.0000000000000000000, -1.000000000000000000 ) ) ;
#349 = CARTESIAN_POINT ( 'NONE',  ( 16.50000000000000000, -19.00000000000000000, 0.5000000000000000000 ) ) ;
#350 = DIRECTION ( 'NONE',  ( -1.000000000000000000, 0.0000000000000000000, 0.0000000000000000000 ) ) ;
#351 = DIRECTION ( 'NONE',  ( 0.0000000000000000000, 0.0000000000000000000, -1.000000000000000000 ) ) ;
#352 = CARTESIAN_POINT ( 'NONE',  ( 16.50000000000000000, 19.00000000000000000, 0.5000000000000000000 ) ) ;
#353 = DIRECTION ( 'NONE',  ( 0.0000000000000000000, 0.0000000000000000000, 1.000000000000000000 ) ) ;
#354 = DIRECTION ( 'NONE',  ( -1.000000000000000000, 0.0000000000000000000, 0.0000000000000000000 ) ) ;
#355 = CARTESIAN_POINT ( 'NONE',  ( 17.50000000000000000, -19.00000000000000000, 0.0000000000000000000 ) ) ;
#356 = PLANE ( 'NONE',  #171 ) ;
#357 = DIRECTION ( 'NONE',  ( -1.000000000000000000, 0.0000000000000000000, 0.0000000000000000000 ) ) ;
#358 = DIRECTION ( 'NONE',  ( 0.0000000000000000000, 0.0000000000000000000, -1.000000000000000000 ) ) ;
#359 = ORIENTED_EDGE ( 'NONE', *, *, #95, .T. ) ;
#360 = ORIENTED_EDGE ( 'NONE', *, *, #80, .T. ) ;
#361 = ORIENTED_EDGE ( 'NONE', *, *, #101, .T. ) ;
#362 = ORIENTED_EDGE ( 'NONE', *, *, #104, .F. ) ;
#363 = ORIENTED_EDGE ( 'NONE', *, *, #101, .F. ) ;
#364 = ORIENTED_EDGE ( 'NONE', *, *, #96, .F. ) ;
#365 = ORIENTED_EDGE ( 'NONE', *, *, #98, .F. ) ;
#366 = ORIENTED_EDGE ( 'NONE', *, *, #98, .T. ) ;
#367 = ORIENTED_EDGE ( 'NONE', *, *, #97, .F. ) ;
#368 = ORIENTED_EDGE ( 'NONE', *, *, #91, .T. ) ;
#369 = ORIENTED_EDGE ( 'NONE', *, *, #99, .F. ) ;
#370 = ORIENTED_EDGE ( 'NONE', *, *, #84, .F. ) ;
#371 = ORIENTED_EDGE ( 'NONE', *, *, #84, .T. ) ;
#372 = ORIENTED_EDGE ( 'NONE', *, *, #83, .T. ) ;
#373 = VERTEX_POINT ( 'NONE', #244 ) ;
#374 = VERTEX_POINT ( 'NONE', #243 ) ;
#375 = VERTEX_POINT ( 'NONE', #242 ) ;
#376 = VERTEX_POINT ( 'NONE', #241 ) ;
#377 = VERTEX_POINT ( 'NONE', #240 ) ;
ENDSEC;
END-ISO-10303-21;
